คอร์ดเพลง

คอร์ดเพลง ใจปลาซิว – ศร (Sorn) เวอร์ชั่น 9 | คอร์ดเล่นเปียโน

คุณกำลังค้นหาหัวข้อ คอร์ดเพลง ใจปลาซิว – ศร (Sorn) เวอร์ชั่น 9 ที่ถูกต้องหรือไม่ หากเป็นเช่นนั้นโปรดดูเนื้อเพลงของเพลงนี้ในขณะนี้.

คอร์ดเพลง ใจปลาซิว – ศร (Sorn) เวอร์ชั่น 9 | คอร์ดเล่นเปียโน.

ใจปลาซิว 
Artist : ศร (Sorn)

เพลง:.ใจปลาซิว
Artist:ศร
Intro:C/Em/Am/G/F/Dm/G

C Em Am/G
แต่ก่อนแต่รัยหัวใจชั้นดังภูผา
F G C
จะพูดจะจาเสียงดังและฟังชัดเจน
Dm G E Am
ไม่กลัวคัยแน่นอนเลือดมันร้อน ถอยไม่เป็น
Dm F G
แต่เจอะกับเธอไม่รู้ชั้นกลายเป็นใคร
C Em Am/G
แต่ลูกผู้ชายถือว่าเป็นความปวดร้าว
F G C
ยิ่งแอบมองสาวต้องมองลอดตามกิ่งไม้
Dm G E Am
เดินตามไปก้าวนึงต้องถอยออกมาหนึ่งเสาไฟ
Dm G C
ไม่รู้ทำไมขากับใจไม่ไปด้วยกัน
F G Em Am
*เป็นตั้งแต่เมื่อพบเธอ เจอหน้าเธอก้อใบ้กิน
Dm F G
ลิ้นพันกัน ไม่รู้มันเปนยังไง
C G Am/G
**ใจปลาซิวทุกทีที่เจอเธอ
C G Am /G
แก้มแดงๆๆของเธอทำหัวใจละลาย
F G E Am
พึ่งจะรู้ว่าความรักทำให้คนเสียความมั่นใจ
Dm G C
ลองรักใครรักเท่าไหร่ก้อไปไม่เป็น
C Em Am/G
ก้อด้ายแต่เพ้อ ว่าเธอจะมองสักครั้ง
F G C
ก้อด้ายแต่หวังหัวใจจะกล้ารักเธอ
Dm G E Am
ลูกผู้ชายตัวจริงเสียงจริง จีบผู้หญิงไม่เป็นหรอกเธอ
Dm G C
เจอหน้าเธออกสามศอกก้อเหลือสามเซนต์
(ซ้ำ*/**)

Solo:Am/G/Em/Am/Dm/G/C
(ซ้ำ*/**)

solo
6--------------------------------------------------------------------------
5---------------------------------------------------------------------------
4---9------------------------------------------------------------------------------------------------------
3-------8---11-------------------------------------------------------------------------------------------
2-----------------12-------12-----11--------------------------------------------------------------7
1----------------------11----------------11---18---19---16---11--11---16---7--7--7---9
ต่อ
6--------------------------------
5--------------------------------
4-----9-------------------------------
3---------6---8---9---6---8---9---------8----9
2-------------------------------------7-----------------7--9---7----9
1---------------------------------------------------------------------------6--7--11---14----18----19

รูปภาพธีมคอร์ดเพลง ใจปลาซิว – ศร (Sorn) เวอร์ชั่น 9จัดทำโดย Thejazzking.com.

คอร์ดเพลง ใจปลาซิว – ศร (Sorn) เวอร์ชั่น 9

นอกจากบทความในหัวข้อ คอร์ดเพลง ใจปลาซิว – ศร (Sorn) เวอร์ชั่น 9 แล้วคุณยังสามารถดู คอร์ดอัปเดตวันนี้ที่นี่: ดูเพิ่มเติมที่นี่.

เราหวังว่าข้อมูลเกี่ยวกับ คอร์ดเพลง ใจปลาซิว – ศร (Sorn) เวอร์ชั่น 9 ที่เรานำเสนอจะ มีค่า สำหรับคุณ.

ดูว่าผู้คนกำลังมองหาอะไรเพิ่มเติมเกี่ยวกับหัวข้อนี้คอร์ดเพลง ใจปลาซิว – ศร (Sorn) เวอร์ชั่น 9.

#คอรดเพลง #ใจปลาซว #ศร #Sorn #เวอรชน.

คอร์ดเพลง ฝันถึงแฟนเก่า
คอร์ดเพลงปราณี
คอร์ดเพลงน้าจร
คอร์ดเพลงคนบ้า
คอร์ดเพลงเสมอ
คอร์ดเพลงฮักฮ่าง
คอร์ดเพลงลูกทุ่ง
คอร์ดเพลงยุค 90
คอร์ด เพลง กะลา
คอร์ดเพลงวณิพก
คอร์ดเพลงฝนตกไหม
คอร์ดเพลงดาว
คอร์ดเพลงชาบู
คอร์ดเพลงมุม
คอร์ดเพลงคู่ชีวิต
คอร์ดเพลงข้ามันลูกทุ่ง
คอร์ดเพลงนกเจ่า
คอร์ดเพลง ภาวินี
คอร์ดเพลงลัง
คอร์ดเพลงวังวน

Parisian Ernesto

สวัสดีทุกคนฉันชื่อ Parisian Ernest ฉันเป็นคนรักดนตรีดังนั้นฉันจึงสร้างเว็บไซต์นี้ด้วยความปรารถนาที่จะแบ่งปันเนื้อหาเกี่ยวกับเพลง ในเว็บไซต์นี้ฉันจะให้คุณมีเนื้อเพลงคอร์ดเพลงและข้อมูลอื่น ๆ เกี่ยวกับเพลงล่าสุด เราหวังว่าข้อมูลนี้จะมีคุณค่ามากสำหรับคุณ

Related Articles

ใส่ความเห็น

อีเมลของคุณจะไม่แสดงให้คนอื่นเห็น ช่องข้อมูลจำเป็นถูกทำเครื่องหมาย *

Back to top button