คอร์ดเพลง

คอร์ดเพลง ตั๋วเที่ยวเดียว – โสภณ | MusicATM | คอร์ดเล่นง่ายที่สุด

คุณกำลังค้นหาหัวข้อ คอร์ดเพลง ตั๋วเที่ยวเดียว – โสภณ | MusicATM ที่ถูกต้องหรือไม่ หากเป็นเช่นนั้นโปรดดูเนื้อเพลงของเพลงนี้ในขณะนี้.

คอร์ดเพลง ตั๋วเที่ยวเดียว – โสภณ | MusicATM | คอร์ดอัปเดตวันนี้.

SOLO
พร้อมตีตั๋วหัวใจมาเที่ยวเดียว ตรงแรกๆนะครับมานจามีโซโล่
1
2---------11-11-11-11------------------11-11-11-11
3--7/9-------------------7-9-7----7/9--------------------7-7
4--------------------------------------------------------------------7-9--10--12--14--12---16^
/สไลต์
^ดันสาย
ท่อน2นะอันนี้ไม่แน่ใจอะครับ
1--------------------
2---------------9------------------------9
3--5--7-7/9-----9--7---5--7-7/9------7h9
4---------------------------------------------------7--9--10--10/12--10--9--9-10--12--5/7/5

4------7--9-10--11
ท่อนนี้เร็วหน่อย
4---9---11
3-------------10--12
2-------------------------11--13
1-------------------------------------12--14

ไม่รู้ถูกป่ะนะมั่วเอาอะ^^ ไงก็ช่วยดูกานหน่อยครับถ้าผิดก็ฝากแก้ให้ด้วยนะคับง่วงไปนอนและ

รูปภาพธีมคอร์ดเพลง ตั๋วเที่ยวเดียว – โสภณ | MusicATMจัดทำโดย Thejazzking.com.

คอร์ดเพลง ตั๋วเที่ยวเดียว – โสภณ | MusicATM

นอกจากบทความในหัวข้อ คอร์ดเพลง ตั๋วเที่ยวเดียว – โสภณ | MusicATM แล้วคุณยังสามารถดู คอร์ดเล่นง่ายที่สุดที่นี่: ดูเพิ่มเติมที่นี่.

https://thejazzking.comหวังว่าข้อมูลเกี่ยวกับ คอร์ดเพลง ตั๋วเที่ยวเดียว – โสภณ | MusicATM ที่เรานำเสนอจะ มีค่า สำหรับคุณ.

ผู้คนกำลังมองหาหัวข้อ คอร์ดเพลง ตั๋วเที่ยวเดียว – โสภณ | MusicATM.

#คอรดเพลง #ตวเทยวเดยว #โสภณ #MusicATM.

คอร์ดเพลง อะไรก็ยอม
คอร์ดเพลงปราณี
คอร์ดเพลงที่ว่าง
คอร์ดเพลงซอมบี้
คอร์ดเพลงหลวงพ่อรวย
คอร์ดเพลงง่ายๆน้าจร
คอร์ดเพลง 18 ฝน
คอร์ดเพลงมาลีฮวนน่า
คอร์ด เพลง กะลา
คอร์ดเพลงที่ผ่าน
คอร์ดเพลงนางเอย
คอร์ดเพลง ฮักสุดท้าย
คอร์ดเพลงชาบู
คอร์ดเพลงมุม
คอร์ดเพลงช่วงเวลา
คอร์ดเพลงมหาลัยวัวชน
คอร์ดเพลงผิงไฟ
คอร์ดเพลง ภาวินี
คอร์ดเพลงศาลาพักใจ
คอร์ดเพลง ทําได้เพียง

Parisian Ernesto

สวัสดีทุกคนฉันชื่อ Parisian Ernest ฉันเป็นคนรักดนตรีดังนั้นฉันจึงสร้างเว็บไซต์นี้ด้วยความปรารถนาที่จะแบ่งปันเนื้อหาเกี่ยวกับเพลง ในเว็บไซต์นี้ฉันจะให้คุณมีเนื้อเพลงคอร์ดเพลงและข้อมูลอื่น ๆ เกี่ยวกับเพลงล่าสุด เราหวังว่าข้อมูลนี้จะมีคุณค่ามากสำหรับคุณ

Related Articles

ใส่ความเห็น

อีเมลของคุณจะไม่แสดงให้คนอื่นเห็น ช่องข้อมูลจำเป็นถูกทำเครื่องหมาย *

Back to top button